  0
SECTION
  2
HEADER
  9
$ACADVER
  1
AC1015
  9
$ACADMAINTVER
 70
     6
  9
$DWGCODEPAGE
  3
ANSI_1254
  9
$INSBASE
 10
0.0
 20
0.0
 30
0.0
  9
$EXTMIN
 10
0.0
 20
0.0
 30
0.0
  9
$EXTMAX
 10
279.4
 20
215.9
 30
0.0
  9
$LIMMIN
 10
0.0
 20
0.0
  9
$LIMMAX
 10
279.4
 20
215.9
  9
$ORTHOMODE
 70
     0
  9
$REGENMODE
 70
     1
  9
$FILLMODE
 70
     1
  9
$QTEXTMODE
 70
     0
  9
$MIRRTEXT
 70
     1
  9
$LTSCALE
 40
1.0
  9
$ATTMODE
 70
     1
  9
$TEXTSIZE
 40
3.5
  9
$TRACEWID
 40
1.0
  9
$TEXTSTYLE
  7
Standard
  9
$CLAYER
  8
0
  9
$CELTYPE
  6
ByLayer
  9
$CECOLOR
 62
   256
  9
$CELTSCALE
 40
1.0
  9
$DISPSILH
 70
     0
  9
$DIMSCALE
 40
1.0
  9
$DIMASZ
 40
3.5
  9
$DIMEXO
 40
1.0
  9
$DIMDLI
 40
3.75
  9
$DIMRND
 40
0.0
  9
$DIMDLE
 40
0.0
  9
$DIMEXE
 40
1.0
  9
$DIMTP
 40
0.0
  9
$DIMTM
 40
0.0
  9
$DIMTXT
 40
3.5
  9
$DIMCEN
 40
2.5
  9
$DIMTSZ
 40
0.0
  9
$DIMTOL
 70
     0
  9
$DIMLIM
 70
     0
  9
$DIMTIH
 70
     1
  9
$DIMTOH
 70
     1
  9
$DIMSE1
 70
     0
  9
$DIMSE2
 70
     0
  9
$DIMTAD
 70
     1
  9
$DIMZIN
 70
     0
  9
$DIMBLK
  1

  9
$DIMASO
 70
     1
  9
$DIMSHO
 70
     1
  9
$DIMPOST
  1

  9
$DIMAPOST
  1

  9
$DIMALT
 70
     0
  9
$DIMALTD
 70
     3
  9
$DIMALTF
 40
0.0393700787
  9
$DIMLFAC
 40
1.0
  9
$DIMTOFL
 70
     1
  9
$DIMTVP
 40
0.0
  9
$DIMTIX
 70
     0
  9
$DIMSOXD
 70
     0
  9
$DIMSAH
 70
     0
  9
$DIMBLK1
  1

  9
$DIMBLK2
  1

  9
$DIMSTYLE
  2
ISO-25
  9
$DIMCLRD
 70
     0
  9
$DIMCLRE
 70
     0
  9
$DIMCLRT
 70
     0
  9
$DIMTFAC
 40
1.0
  9
$DIMGAP
 40
1.524
  9
$DIMJUST
 70
     0
  9
$DIMSD1
 70
     0
  9
$DIMSD2
 70
     0
  9
$DIMTOLJ
 70
     0
  9
$DIMTZIN
 70
     0
  9
$DIMALTZ
 70
     0
  9
$DIMALTTZ
 70
     0
  9
$DIMUPT
 70
     0
  9
$DIMDEC
 70
     2
  9
$DIMTDEC
 70
     2
  9
$DIMALTU
 70
     2
  9
$DIMALTTD
 70
     3
  9
$DIMTXSTY
  7
Standard
  9
$DIMAUNIT
 70
     0
  9
$DIMADEC
 70
     2
  9
$DIMALTRND
 40
0.0
  9
$DIMAZIN
 70
     0
  9
$DIMDSEP
 70
    44
  9
$DIMATFIT
 70
     3
  9
$DIMFRAC
 70
     0
  9
$DIMLDRBLK
  1

  9
$DIMLUNIT
 70
     2
  9
$DIMLWD
 70
    -2
  9
$DIMLWE
 70
    -2
  9
$DIMTMOVE
 70
     0
  9
$LUNITS
 70
     2
  9
$LUPREC
 70
     2
  9
$SKETCHINC
 40
1.0
  9
$FILLETRAD
 40
10.0
  9
$AUNITS
 70
     0
  9
$AUPREC
 70
     2
  9
$MENU
  1
.
  9
$ELEVATION
 40
0.0
  9
$PELEVATION
 40
0.0
  9
$THICKNESS
 40
0.0
  9
$LIMCHECK
 70
     0
  9
$CHAMFERA
 40
0.0
  9
$CHAMFERB
 40
0.0
  9
$CHAMFERC
 40
0.0
  9
$CHAMFERD
 40
0.0
  9
$SKPOLY
 70
     0
  9
$TDCREATE
 40
2458985.691232662
  9
$TDUCREATE
 40
2458985.566232662
  9
$TDUPDATE
 40
2458985.691233021
  9
$TDUUPDATE
 40
2458985.566233021
  9
$TDINDWG
 40
0.0000000116
  9
$TDUSRTIMER
 40
0.0000000116
  9
$USRTIMER
 70
     1
  9
$ANGBASE
 50
0.0
  9
$ANGDIR
 70
     0
  9
$PDMODE
 70
     0
  9
$PDSIZE
 40
-1.0
  9
$PLINEWID
 40
0.0
  9
$SPLFRAME
 70
     0
  9
$SPLINETYPE
 70
     6
  9
$SPLINESEGS
 70
     8
  9
$HANDSEED
  5
CB
  9
$SURFTAB1
 70
     6
  9
$SURFTAB2
 70
     6
  9
$SURFTYPE
 70
     6
  9
$SURFU
 70
     6
  9
$SURFV
 70
     6
  9
$UCSBASE
  2

  9
$UCSNAME
  2

  9
$UCSORG
 10
0.0
 20
0.0
 30
0.0
  9
$UCSXDIR
 10
1.0
 20
0.0
 30
0.0
  9
$UCSYDIR
 10
0.0
 20
1.0
 30
0.0
  9
$UCSORTHOREF
  2

  9
$UCSORTHOVIEW
 70
     0
  9
$UCSORGTOP
 10
0.0
 20
0.0
 30
0.0
  9
$UCSORGBOTTOM
 10
0.0
 20
0.0
 30
0.0
  9
$UCSORGLEFT
 10
0.0
 20
0.0
 30
0.0
  9
$UCSORGRIGHT
 10
0.0
 20
0.0
 30
0.0
  9
$UCSORGFRONT
 10
0.0
 20
0.0
 30
0.0
  9
$UCSORGBACK
 10
0.0
 20
0.0
 30
0.0
  9
$PUCSBASE
  2

  9
$PUCSNAME
  2

  9
$PUCSORG
 10
0.0
 20
0.0
 30
0.0
  9
$PUCSXDIR
 10
1.0
 20
0.0
 30
0.0
  9
$PUCSYDIR
 10
0.0
 20
1.0
 30
0.0
  9
$PUCSORTHOREF
  2

  9
$PUCSORTHOVIEW
 70
     0
  9
$PUCSORGTOP
 10
0.0
 20
0.0
 30
0.0
  9
$PUCSORGBOTTOM
 10
0.0
 20
0.0
 30
0.0
  9
$PUCSORGLEFT
 10
0.0
 20
0.0
 30
0.0
  9
$PUCSORGRIGHT
 10
0.0
 20
0.0
 30
0.0
  9
$PUCSORGFRONT
 10
0.0
 20
0.0
 30
0.0
  9
$PUCSORGBACK
 10
0.0
 20
0.0
 30
0.0
  9
$USERI1
 70
     0
  9
$USERI2
 70
     0
  9
$USERI3
 70
     0
  9
$USERI4
 70
     0
  9
$USERI5
 70
     0
  9
$USERR1
 40
0.0
  9
$USERR2
 40
0.0
  9
$USERR3
 40
0.0
  9
$USERR4
 40
0.0
  9
$USERR5
 40
0.0
  9
$WORLDVIEW
 70
     1
  9
$SHADEDGE
 70
     3
  9
$SHADEDIF
 70
    70
  9
$TILEMODE
 70
     1
  9
$MAXACTVP
 70
    64
  9
$PINSBASE
 10
0.0
 20
0.0
 30
0.0
  9
$PLIMCHECK
 70
     0
  9
$PEXTMIN
 10
1.0000000000E+20
 20
1.0000000000E+20
 30
1.0000000000E+20
  9
$PEXTMAX
 10
-1.0000000000E+20
 20
-1.0000000000E+20
 30
-1.0000000000E+20
  9
$PLIMMIN
 10
0.0
 20
0.0
  9
$PLIMMAX
 10
420.0
 20
297.0
  9
$UNITMODE
 70
     0
  9
$VISRETAIN
 70
     1
  9
$PLINEGEN
 70
     0
  9
$PSLTSCALE
 70
     1
  9
$TREEDEPTH
 70
  3020
  9
$CMLSTYLE
  2
Standard
  9
$CMLJUST
 70
     0
  9
$CMLSCALE
 40
20.0
  9
$PROXYGRAPHICS
 70
     1
  9
$MEASUREMENT
 70
     1
  9
$CELWEIGHT
370
    -1
  9
$ENDCAPS
280
     0
  9
$JOINSTYLE
280
     0
  9
$LWDISPLAY
290
     1
  9
$INSUNITS
 70
     4
  9
$HYPERLINKBASE
  1

  9
$STYLESHEET
  1

  9
$XEDIT
290
     1
  9
$CEPSNTYPE
380
     0
  9
$PSTYLEMODE
290
     1
  9
$FINGERPRINTGUID
  2
{a104b63b-46eb-40ba-90d0-a2affc4d2404}
  9
$VERSIONGUID
  2
{FAEB1C32-E019-11D5-929B-00C0DF256EC4}
  9
$EXTNAMES
290
     1
  9
$PSVPSCALE
 40
0.0
  9
$OLESTARTUP
290
     0
  0
ENDSEC
  0
SECTION
  2
CLASSES
  0
CLASS
  1
ACDBDICTIONARYWDFLT
  2
AcDbDictionaryWithDefault
  3
ObjectDBX Classes
 90
        0
280
     0
281
     0
  0
CLASS
  1
VISUALSTYLE
  2
AcDbVisualStyle
  3
ObjectDBX Classes
 90
     4095
280
     0
281
     0
  0
CLASS
  1
MATERIAL
  2
AcDbMaterial
  3
ObjectDBX Classes
 90
     1153
280
     0
281
     0
  0
CLASS
  1
SCALE
  2
AcDbScale
  3
ObjectDBX Classes
 90
     1153
280
     0
281
     0
  0
CLASS
  1
TABLESTYLE
  2
AcDbTableStyle
  3
ObjectDBX Classes
 90
     4095
280
     0
281
     0
  0
CLASS
  1
MLEADERSTYLE
  2
AcDbMLeaderStyle
  3
ACDB_MLEADERSTYLE_CLASS
 90
     4095
280
     0
281
     0
  0
CLASS
  1
SUN
  2
AcDbSun
  3
SCENEOE
 90
     1153
280
     0
281
     0
  0
CLASS
  1
ACDBPLACEHOLDER
  2
AcDbPlaceHolder
  3
ObjectDBX Classes
 90
        0
280
     0
281
     0
  0
CLASS
  1
LAYOUT
  2
AcDbLayout
  3
ObjectDBX Classes
 90
        0
280
     0
281
     0
  0
ENDSEC
  0
SECTION
  2
TABLES
  0
TABLE
  2
VPORT
  5
8
330
0
100
AcDbSymbolTable
 70
     1
  0
VPORT
  5
29
330
8
100
AcDbSymbolTableRecord
100
AcDbViewportTableRecord
  2
*Active
 70
     0
 10
0.0
 20
0.0
 11
1.0
 21
1.0
 12
139.7
 22
107.95
 13
0.0
 23
0.0
 14
10.0
 24
10.0
 15
10.0
 25
10.0
 16
0.0
 26
0.0
 36
1.0
 17
0.0
 27
0.0
 37
0.0
 40
215.9
 41
1.2941176471
 42
50.0
 43
0.0
 44
0.0
 50
0.0
 51
0.0
 71
     0
 72
  2000
 73
     1
 74
     3
 75
     0
 76
     0
 77
     0
 78
     0
281
     0
 65
     1
110
0.0
120
0.0
130
0.0
111
1.0
121
0.0
131
0.0
112
0.0
122
1.0
132
0.0
 79
     0
146
0.0
  0
ENDTAB
  0
TABLE
  2
LTYPE
  5
5
330
0
100
AcDbSymbolTable
 70
     6
  0
LTYPE
  5
14
330
5
100
AcDbSymbolTableRecord
100
AcDbLinetypeTableRecord
  2
ByBlock
 70
     0
  3

 72
    65
 73
     0
 40
0.0
  0
LTYPE
  5
15
330
5
100
AcDbSymbolTableRecord
100
AcDbLinetypeTableRecord
  2
ByLayer
 70
     0
  3

 72
    65
 73
     0
 40
0.0
  0
LTYPE
  5
16
330
5
100
AcDbSymbolTableRecord
100
AcDbLinetypeTableRecord
  2
Continuous
 70
     0
  3
Solid line
 72
    65
 73
     0
 40
0.0
  0
LTYPE
  5
6E
330
5
100
AcDbSymbolTableRecord
100
AcDbLinetypeTableRecord
  2
HIDDEN
 70
     0
  3
Hidden __ __ __ __ __ __ __ __ __ __ __ __ __ __
 72
    65
 73
     2
 40
1.905
 49
1.27
 74
     0
 49
-0.635
 74
     0
  0
LTYPE
  5
6F
330
5
100
AcDbSymbolTableRecord
100
AcDbLinetypeTableRecord
  2
PHANTOM
 70
     0
  3
Phantom ______  __  __  ______  __  __  ______
 72
    65
 73
     6
 40
12.7
 49
6.35
 74
     0
 49
-1.27
 74
     0
 49
1.27
 74
     0
 49
-1.27
 74
     0
 49
1.27
 74
     0
 49
-1.27
 74
     0
  0
LTYPE
  5
70
330
5
100
AcDbSymbolTableRecord
100
AcDbLinetypeTableRecord
  2
CENTER
 70
     0
  3
Center ____ _ ____ _ ____ _ ____ _ ____ _ ____
 72
    65
 73
     4
 40
10.16
 49
6.35
 74
     0
 49
-1.27
 74
     0
 49
1.27
 74
     0
 49
-1.27
 74
     0
  0
LTYPE
  5
71
330
5
100
AcDbSymbolTableRecord
100
AcDbLinetypeTableRecord
  2
CENTERX2
 70
     0
  3
Center (2x) ________  __  ________  __  _____
 72
    65
 73
     4
 40
20.32
 49
12.7
 74
     0
 49
-2.54
 74
     0
 49
2.54
 74
     0
 49
-2.54
 74
     0
  0
LTYPE
  5
72
330
5
100
AcDbSymbolTableRecord
100
AcDbLinetypeTableRecord
  2
DOT2
 70
     0
  3
Dot (.5x) ........................................
 72
    65
 73
     2
 40
0.635
 49
0.0
 74
     0
 49
-0.635
 74
     0
  0
ENDTAB
  0
TABLE
  2
LAYER
  5
2
330
0
100
AcDbSymbolTable
 70
    17
  0
LAYER
  5
10
330
2
100
AcDbSymbolTableRecord
100
AcDbLayerTableRecord
  2
0
 70
     0
 62
     7
  6
Continuous
370
    -3
390
F
  0
LAYER
  5
73
330
2
100
AcDbSymbolTableRecord
100
AcDbLayerTableRecord
  2
FORMAT
 70
     0
 62
     7
  6
Continuous
370
    -3
390
F
  0
LAYER
  5
74
330
2
100
AcDbSymbolTableRecord
100
AcDbLayerTableRecord
  2
YARDIMCI_GEOMETRI
 70
     0
 62
    -6
  6
Continuous
290
     0
370
    -3
390
F
  0
LAYER
  5
75
330
2
100
AcDbSymbolTableRecord
100
AcDbLayerTableRecord
  2
SAYFA_CERCEVESI
 70
     0
 62
     7
  6
Continuous
370
    25
390
F
  0
LAYER
  5
76
330
2
100
AcDbSymbolTableRecord
100
AcDbLayerTableRecord
  2
ANTET
 70
     0
 62
     7
  6
Continuous
370
    -3
390
F
  0
LAYER
  5
77
330
2
100
AcDbSymbolTableRecord
100
AcDbLayerTableRecord
  2
OLCU
 70
     0
 62
   150
  6
Continuous
370
    -3
390
F
  0
LAYER
  5
78
330
2
100
AcDbSymbolTableRecord
100
AcDbLayerTableRecord
  2
METIN
 70
     0
 62
    96
  6
Continuous
370
    -3
390
F
  0
LAYER
  5
79
330
2
100
AcDbSymbolTableRecord
100
AcDbLayerTableRecord
  2
BALON
 70
     0
 62
     5
  6
Continuous
370
    -3
390
F
  0
LAYER
  5
7A
330
2
100
AcDbSymbolTableRecord
100
AcDbLayerTableRecord
  2
VURGU
 70
     0
 62
     7
  6
Continuous
370
    -3
390
F
  0
LAYER
  5
7B
330
2
100
AcDbSymbolTableRecord
100
AcDbLayerTableRecord
  2
SILIK
 70
     0
 62
     7
  6
Continuous
370
    -3
390
F
  0
LAYER
  5
7C
330
2
100
AcDbSymbolTableRecord
100
AcDbLayerTableRecord
  2
MODEL
 70
     0
 62
     7
  6
Continuous
370
    -3
390
F
  0
LAYER
  5
7D
330
2
100
AcDbSymbolTableRecord
100
AcDbLayerTableRecord
  2
DETAYLANDıRMA
 70
     0
 62
   190
  6
Continuous
370
    -3
390
F
  0
LAYER
  5
7E
330
2
100
AcDbSymbolTableRecord
100
AcDbLayerTableRecord
  2
TOLERANS
 70
     0
 62
   230
  6
Continuous
370
    -3
390
F
  0
LAYER
  5
7F
330
2
100
AcDbSymbolTableRecord
100
AcDbLayerTableRecord
  2
MERKEZ_CIZGILERI
 70
     0
 62
    30
  6
Continuous
370
    -3
390
F
  0
LAYER
  5
80
330
2
100
AcDbSymbolTableRecord
100
AcDbLayerTableRecord
  2
KESIT-DETAY_CIZGILERI
 70
     0
 62
     7
  6
Continuous
370
    -3
390
F
  0
LAYER
  5
81
330
2
100
AcDbSymbolTableRecord
100
AcDbLayerTableRecord
  2
\U+041E\U+0421\U+0415\U+0412\U+042B\U+0415
 70
     0
 62
     7
  6
Continuous
370
    -3
390
F
  0
LAYER
  5
82
330
2
100
AcDbSymbolTableRecord
100
AcDbLayerTableRecord
  2
\U+0412\U+041E\U+0414\U+042F\U+041D\U+042B\U+0415_\U+0417\U+041D\U+0410\U+041A\U+0418
 70
     0
 62
    11
  6
Continuous
370
    -3
390
F
  0
ENDTAB
  0
TABLE
  2
STYLE
  5
3
330
0
100
AcDbSymbolTable
 70
     1
  0
STYLE
  5
11
330
3
100
AcDbSymbolTableRecord
100
AcDbTextStyleTableRecord
  2
Standard
 70
     0
 40
0.0
 41
1.0
 50
0.0
 71
     0
 42
3.5
  3
txt
  4

  0
ENDTAB
  0
TABLE
  2
VIEW
  5
6
330
0
100
AcDbSymbolTable
 70
     0
  0
ENDTAB
  0
TABLE
  2
UCS
  5
7
330
0
100
AcDbSymbolTable
 70
     0
  0
ENDTAB
  0
TABLE
  2
APPID
  5
9
330
0
100
AcDbSymbolTable
 70
     1
  0
APPID
  5
12
330
9
100
AcDbSymbolTableRecord
100
AcDbRegAppTableRecord
  2
ACAD
 70
     0
  0
ENDTAB
  0
TABLE
  2
DIMSTYLE
  5
A
330
0
100
AcDbSymbolTable
 70
     1
100
AcDbDimStyleTable
  0
DIMSTYLE
105
27
330
A
100
AcDbSymbolTableRecord
100
AcDbDimStyleTableRecord
  2
ISO-25
 70
     0
 41
2.5
 42
0.625
 43
3.75
 44
1.25
 73
     0
 74
     0
 77
     1
 78
     8
140
2.5
141
2.5
143
0.0393700787
147
0.625
171
     3
172
     1
178
     0
271
     2
272
     2
274
     3
278
    44
283
     0
284
     8
340
11
  0
ENDTAB
  0
TABLE
  2
BLOCK_RECORD
  5
1
330
0
100
AcDbSymbolTable
 70
     3
  0
BLOCK_RECORD
  5
1F
330
1
100
AcDbSymbolTableRecord
100
AcDbBlockTableRecord
  2
*Model_Space
340
22
  0
BLOCK_RECORD
  5
1B
330
1
100
AcDbSymbolTableRecord
100
AcDbBlockTableRecord
  2
*Paper_Space
340
1E
  0
BLOCK_RECORD
  5
23
330
1
100
AcDbSymbolTableRecord
100
AcDbBlockTableRecord
  2
*Paper_Space0
340
26
  0
BLOCK_RECORD
  5
88
330
1
100
AcDbSymbolTableRecord
100
AcDbBlockTableRecord
  2
SW_CENTERMARKSYMBOL_0
340
0
102
{BLKREFS
331
93
102
}
  0
BLOCK_RECORD
  5
9C
330
1
100
AcDbSymbolTableRecord
100
AcDbBlockTableRecord
  2
SW_CENTERMARKSYMBOL_1
340
0
102
{BLKREFS
331
A7
102
}
  0
ENDTAB
  0
ENDSEC
  0
SECTION
  2
BLOCKS
  0
BLOCK
  5
20
330
1F
100
AcDbEntity
  8
0
100
AcDbBlockBegin
  2
*Model_Space
 70
     0
 10
0.0
 20
0.0
 30
0.0
  3
*Model_Space
  1

  0
ENDBLK
  5
21
330
1F
100
AcDbEntity
  8
0
100
AcDbBlockEnd
  0
BLOCK
  5
1C
330
1B
100
AcDbEntity
 67
     1
  8
0
100
AcDbBlockBegin
  2
*Paper_Space
 70
     0
 10
0.0
 20
0.0
 30
0.0
  3
*Paper_Space
  1

  0
ENDBLK
  5
1D
330
1B
100
AcDbEntity
 67
     1
  8
0
100
AcDbBlockEnd
  0
BLOCK
  5
24
330
23
100
AcDbEntity
  8
0
100
AcDbBlockBegin
  2
*Paper_Space0
 70
     0
 10
0.0
 20
0.0
 30
0.0
  3
*Paper_Space0
  1

  0
ENDBLK
  5
25
330
23
100
AcDbEntity
  8
0
100
AcDbBlockEnd
  0
BLOCK
  5
89
330
88
100
AcDbEntity
  8
0
100
AcDbBlockBegin
  2
SW_CENTERMARKSYMBOL_0
 70
     0
 10
0.0
 20
0.0
 30
0.0
  3
SW_CENTERMARKSYMBOL_0
  1

  0
LINE
  5
8B
330
88
100
AcDbEntity
  8
FORMAT
 62
     0
100
AcDbLine
 10
0.0
 20
0.0
 30
0.0
 11
2.5
 21
0.0
 31
0.0
  0
LINE
  5
8C
330
88
100
AcDbEntity
  8
FORMAT
 62
     0
100
AcDbLine
 10
0.0
 20
0.0
 30
0.0
 11
0.0
 21
2.5
 31
0.0
  0
LINE
  5
8D
330
88
100
AcDbEntity
  8
FORMAT
 62
     0
100
AcDbLine
 10
0.0
 20
0.0
 30
0.0
 11
-2.5
 21
0.0
 31
0.0
  0
LINE
  5
8E
330
88
100
AcDbEntity
  8
FORMAT
 62
     0
100
AcDbLine
 10
0.0
 20
0.0
 30
0.0
 11
0.0
 21
-2.5
 31
0.0
  0
LINE
  5
8F
330
88
100
AcDbEntity
  8
FORMAT
 62
     0
100
AcDbLine
 10
5.0
 20
0.0
 30
0.0
 11
127.5
 21
0.0
 31
0.0
  0
LINE
  5
90
330
88
100
AcDbEntity
  8
FORMAT
 62
     0
100
AcDbLine
 10
0.0
 20
5.0
 30
0.0
 11
0.0
 21
127.5
 31
0.0
  0
LINE
  5
91
330
88
100
AcDbEntity
  8
FORMAT
 62
     0
100
AcDbLine
 10
-5.0
 20
0.0
 30
0.0
 11
-127.5
 21
0.0
 31
0.0
  0
LINE
  5
92
330
88
100
AcDbEntity
  8
FORMAT
 62
     0
100
AcDbLine
 10
0.0
 20
-5.0
 30
0.0
 11
0.0
 21
-127.5
 31
0.0
  0
ENDBLK
  5
8A
330
88
100
AcDbEntity
  8
0
100
AcDbBlockEnd
  0
BLOCK
  5
9D
330
9C
100
AcDbEntity
  8
0
100
AcDbBlockBegin
  2
SW_CENTERMARKSYMBOL_1
 70
     0
 10
0.0
 20
0.0
 30
0.0
  3
SW_CENTERMARKSYMBOL_1
  1

  0
LINE
  5
9F
330
9C
100
AcDbEntity
  8
FORMAT
 62
     0
100
AcDbLine
 10
0.0
 20
0.0
 30
0.0
 11
0.0
 21
2.5
 31
0.0
  0
LINE
  5
A0
330
9C
100
AcDbEntity
  8
FORMAT
 62
     0
100
AcDbLine
 10
0.0
 20
0.0
 30
0.0
 11
-2.5
 21
0.0
 31
0.0
  0
LINE
  5
A1
330
9C
100
AcDbEntity
  8
FORMAT
 62
     0
100
AcDbLine
 10
0.0
 20
0.0
 30
0.0
 11
0.0
 21
-2.5
 31
0.0
  0
LINE
  5
A2
330
9C
100
AcDbEntity
  8
FORMAT
 62
     0
100
AcDbLine
 10
0.0
 20
0.0
 30
0.0
 11
2.5
 21
0.0
 31
0.0
  0
LINE
  5
A3
330
9C
100
AcDbEntity
  8
FORMAT
 62
     0
100
AcDbLine
 10
0.0
 20
5.0
 30
0.0
 11
0.0
 21
57.5
 31
0.0
  0
LINE
  5
A4
330
9C
100
AcDbEntity
  8
FORMAT
 62
     0
100
AcDbLine
 10
-5.0
 20
0.0
 30
0.0
 11
-57.5
 21
0.0
 31
0.0
  0
LINE
  5
A5
330
9C
100
AcDbEntity
  8
FORMAT
 62
     0
100
AcDbLine
 10
0.0
 20
-5.0
 30
0.0
 11
0.0
 21
-57.5
 31
0.0
  0
LINE
  5
A6
330
9C
100
AcDbEntity
  8
FORMAT
 62
     0
100
AcDbLine
 10
5.0
 20
0.0
 30
0.0
 11
57.5
 21
0.0
 31
0.0
  0
ENDBLK
  5
9E
330
9C
100
AcDbEntity
  8
0
100
AcDbBlockEnd
  0
ENDSEC
  0
SECTION
  2
ENTITIES
  0
LINE
  5
83
330
1F
100
AcDbEntity
  8
0
  6
Continuous
 62
     7
370
    25
100
AcDbLine
 10
85.2388278633
 20
40.8926707196
 30
0.0
 11
85.2388278633
 21
-97.8167254042
 31
0.0
  0
LINE
  5
84
330
1F
100
AcDbEntity
  8
0
  6
Continuous
 62
     7
370
    25
100
AcDbLine
 10
195.2388272672
 20
-97.8167254042
 30
0.0
 11
195.2388272672
 21
40.8989962626
 31
0.0
  0
CIRCLE
  5
85
330
1F
100
AcDbEntity
  8
0
  6
Continuous
 62
     7
370
    25
100
AcDbCircle
 10
140.2388275653
 20
153.1832617212
 30
0.0
 40
110.2
  0
CIRCLE
  5
86
330
1F
100
AcDbEntity
  8
0
  6
Continuous
 62
     7
370
    25
100
AcDbCircle
 10
140.2388275653
 20
153.1832617212
 30
0.0
 40
125.0
  0
LINE
  5
87
330
1F
100
AcDbEntity
  8
0
  6
Continuous
 62
     7
370
    25
100
AcDbLine
 10
195.2388272672
 20
-97.8167254042
 30
0.0
 11
85.2388278633
 21
-97.8167254042
 31
0.0
  0
INSERT
  5
93
330
1F
100
AcDbEntity
  8
FORMAT
 62
     7
100
AcDbBlockReference
  2
SW_CENTERMARKSYMBOL_0
 10
140.2388275653
 20
153.1832617212
 30
0.0
  0
LINE
  5
94
330
1F
100
AcDbEntity
  8
0
  6
Continuous
 62
     7
370
    25
100
AcDbLine
 10
265.2388275653
 20
431.4606892533
 30
0.0
 11
265.2388275653
 21
1021.4606630273
 31
0.0
  0
LINE
  5
95
330
1F
100
AcDbEntity
  8
0
  6
Continuous
 62
     7
370
    25
100
AcDbLine
 10
15.2388275653
 20
1021.4606630273
 30
0.0
 11
15.2388275653
 21
431.4606892533
 31
0.0
  0
CIRCLE
  5
96
330
1F
100
AcDbEntity
  8
0
  6
Continuous
 62
     7
370
    25
100
AcDbCircle
 10
140.2388275653
 20
726.4606761403
 30
0.0
 40
48.39999999999998
  0
CIRCLE
  5
97
330
1F
100
AcDbEntity
  8
0
  6
Continuous
 62
     7
370
    25
100
AcDbCircle
 10
140.2388275653
 20
726.4606761403
 30
0.0
 40
55.00000000000011
  0
LINE
  5
98
330
1F
100
AcDbEntity
  8
0
  6
Continuous
 62
     7
370
    25
100
AcDbLine
 10
140.2388275653
 20
1021.4606630273
 30
0.0
 11
265.2388275653
 21
1021.4606630273
 31
0.0
  0
LINE
  5
99
330
1F
100
AcDbEntity
  8
0
  6
Continuous
 62
     7
370
    25
100
AcDbLine
 10
15.2388275653
 20
1021.4606630273
 30
0.0
 11
140.2388275653
 21
1021.4606630273
 31
0.0
  0
LINE
  5
9A
330
1F
100
AcDbEntity
  8
0
  6
Continuous
 62
     7
370
    25
100
AcDbLine
 10
140.2388275653
 20
431.4606892533
 30
0.0
 11
265.2388275653
 21
431.4606892533
 31
0.0
  0
LINE
  5
9B
330
1F
100
AcDbEntity
  8
0
  6
Continuous
 62
     7
370
    25
100
AcDbLine
 10
15.2388275653
 20
431.4606892533
 30
0.0
 11
140.2388275653
 21
431.4606892533
 31
0.0
  0
INSERT
  5
A7
330
1F
100
AcDbEntity
  8
FORMAT
100
AcDbBlockReference
  2
SW_CENTERMARKSYMBOL_1
 10
140.2388275653
 20
726.4606761403
 30
0.0
  0
LINE
  5
A8
330
1F
100
AcDbEntity
  8
0
  6
Continuous
 62
     7
370
    25
100
AcDbLine
 10
-185.0619233413
 20
278.1832617212
 30
0.0
 11
-775.0618971153
 21
278.1832617212
 31
0.0
  0
LINE
  5
A9
330
1F
100
AcDbEntity
  8
0
  6
Continuous
 62
     7
370
    25
100
AcDbLine
 10
-425.1097395285
 20
28.1832617212
 30
0.0
 11
-185.0619233413
 21
28.1832617212
 31
0.0
  0
LINE
  5
AA
330
1F
100
AcDbEntity
  8
0
  6
Continuous
 62
     7
370
    25
100
AcDbLine
 10
-775.0618971153
 20
28.1832617212
 30
0.0
 11
-535.0619099303
 21
28.1832617212
 31
0.0
  0
LINE
  5
AB
330
1F
100
AcDbEntity
  8
0
  6
Continuous
 62
     7
370
    25
100
AcDbLine
 10
-535.0619099303
 20
28.1832617212
 30
0.0
 11
-535.0619099303
 21
-97.8167254042
 31
0.0
  0
LINE
  5
AC
330
1F
100
AcDbEntity
  8
0
  6
Continuous
 62
     7
370
    25
100
AcDbLine
 10
-425.0619105263
 20
-97.8167254042
 30
0.0
 11
-425.0619105263
 21
28.2043543148
 31
0.0
  0
LWPOLYLINE
  5
AD
330
1F
100
AcDbEntity
  8
0
  6
Continuous
 62
     7
370
    25
100
AcDbPolyline
 90
       37
 70
   128
 43
0.0
 10
-425.1097395285
 20
28.2043543148
 10
-425.1185014112
 20
28.2082658696
 10
-425.5163326128
 20
28.3825424004
 10
-426.2126638754
 20
28.6853786993
 10
-427.2183246179
 20
29.1169684816
 10
-428.5650505884
 20
29.6846282172
 10
-430.2165611847
 20
30.3640541125
 10
-434.4051919146
 20
32.0034947682
 10
-436.9710489376
 20
32.9467531729
 10
-439.7998332246
 20
33.9312803435
 10
-443.0426760776
 20
34.986692338
 10
-446.5409732623
 20
36.0352646995
 10
-450.3838057829
 20
37.0763492274
 10
-454.4553953423
 20
38.0498867917
 10
-458.6934122457
 20
38.9174920011
 10
-463.1064209355
 20
39.6601882267
 10
-467.8246873631
 20
40.2680140424
 10
-472.6586161381
 20
40.6896647501
 10
-477.0035071964
 20
40.8915233302
 10
-481.3720768983
 20
40.9258928585
 10
-485.8730585514
 20
40.7828268099
 10
-490.3264205171
 20
40.4652085591
 10
-498.2401608689
 20
39.4711297441
 10
-505.87892078
 20
38.0028885293
 10
-513.1274900599
 20
36.1647483397
 10
-516.5282218917
 20
35.1586964417
 10
-519.6951023503
 20
34.1421317744
 10
-522.7695658071
 20
33.0835532832
 10
-525.5455776317
 20
32.0685904908
 10
-528.0711009367
 20
31.0977723885
 10
-530.2385940416
 20
30.2292060542
 10
-531.9557144506
 20
29.5186143804
 10
-533.3100511892
 20
28.9441224623
 10
-534.3120276196
 20
28.5115268517
 10
-534.8979897065
 20
28.2553013849
 10
-535.0619099303
 20
28.1832617212
 10
-535.0619099303
 20
28.1832617212
  0
LINE
  5
AE
330
1F
100
AcDbEntity
  8
0
  6
Continuous
 62
     7
370
    25
100
AcDbLine
 10
-775.0618971153
 20
28.1832617212
 30
0.0
 11
-775.0618971153
 21
278.1832617212
 31
0.0
  0
LINE
  5
AF
330
1F
100
AcDbEntity
  8
0
  6
Continuous
 62
     7
370
    25
100
AcDbLine
 10
-185.0619233413
 20
28.1832617212
 30
0.0
 11
-185.0619233413
 21
278.1832617212
 31
0.0
  0
LINE
  5
B0
330
1F
100
AcDbEntity
  8
0
  6
Continuous
 62
     7
370
    25
100
AcDbLine
 10
-425.0619105263
 20
-97.8167254042
 30
0.0
 11
-535.0619099303
 21
-97.8167254042
 31
0.0
  0
LINE
  5
B1
330
1F
100
AcDbEntity
  8
0
  6
Continuous
 62
     7
370
    25
100
AcDbLine
 10
814.8430719262
 20
28.1832617212
 30
0.0
 11
1054.8430591112
 21
28.1832617212
 31
0.0
  0
LINE
  5
B2
330
1F
100
AcDbEntity
  8
0
  6
Continuous
 62
     7
370
    25
100
AcDbLine
 10
464.8430853373
 20
28.1832617212
 30
0.0
 11
704.8903241044
 21
28.1832617212
 31
0.0
  0
LINE
  5
B3
330
1F
100
AcDbEntity
  8
0
  6
Continuous
 62
     7
370
    25
100
AcDbLine
 10
1054.8430591112
 20
278.1832617212
 30
0.0
 11
464.8430853373
 21
278.1832617212
 31
0.0
  0
LINE
  5
B4
330
1F
100
AcDbEntity
  8
0
  6
Continuous
 62
     7
370
    25
100
AcDbLine
 10
704.8430725223
 20
28.204048841
 30
0.0
 11
704.8430725223
 21
-97.8167254042
 31
0.0
  0
LINE
  5
B5
330
1F
100
AcDbEntity
  8
0
  6
Continuous
 62
     7
370
    25
100
AcDbLine
 10
814.8430719262
 20
-97.8167254042
 30
0.0
 11
814.8430719262
 21
28.1832617212
 31
0.0
  0
SPLINE
  5
B6
330
1F
100
AcDbEntity
  8
0
  6
Continuous
 62
     7
370
    25
100
AcDbSpline
210
0.0
220
0.0
230
1.0
 70
     8
 71
     3
 72
    44
 73
    40
 74
     0
 42
0.000000001
 43
0.00000001
 40
0.0
 40
0.0
 40
0.0
 40
0.0
 40
0.0246975136122658
 40
0.0495784778704114
 40
0.0750302570806091
 40
0.1006745505561784
 40
0.1253698658155122
 40
0.1502280193858794
 40
0.1755791102953448
 40
0.2010923882062478
 40
0.22703654096265
 40
0.2531441721507401
 40
0.2797594575918422
 40
0.3065494591101113
 40
0.3338633706768476
 40
0.3613769643682349
 40
0.3895503129051469
 40
0.4179677175659797
 40
0.4438041931909448
 40
0.469849231418637
 40
0.4965747395427119
 40
0.5235430017086651
 40
0.5472070577520224
 40
0.5710348969657498
 40
0.5953619388353242
 40
0.6198534155666201
 40
0.6684658602594892
 40
0.7182583580350693
 40
0.7447853915479359
 40
0.7714847633651583
 40
0.7987301130389962
 40
0.826168105148566
 40
0.853353531513694
 40
0.8807459550029889
 40
0.9088217312623528
 40
0.9371476833755475
 40
0.9624553198363988
 40
0.9879579627378025
 40
1.0
 40
1.0
 40
1.0
 40
1.0
 10
814.8430719262154
 20
28.18326172115117
 30
0.0
 10
814.8103109021714
 20
28.19769549424328
 30
0.0
 10
814.7445455084932
 20
28.2266702530416
 30
0.0
 10
814.2088120286987
 20
28.46154721093686
 30
0.0
 10
813.3436125271314
 20
28.83690846966207
 30
0.0
 10
812.1308699451855
 20
29.35476045164341
 30
0.0
 10
810.606452862411
 20
29.99167733870606
 30
0.0
 10
808.7839689593802
 20
30.73279654677393
 30
0.0
 10
806.6454589919872
 20
31.57336392327834
 30
0.0
 10
804.187802255116
 20
32.49980443176771
 30
0.0
 10
801.427633597657
 20
33.48868356666354
 30
0.0
 10
798.3596912874202
 20
34.52216454728274
 30
0.0
 10
795.0009860791155
 20
35.57225653480239
 30
0.0
 10
791.3444744138058
 20
36.61613479180052
 30
0.0
 10
787.413778660729
 20
37.61970593662419
 30
0.0
 10
783.1980637756504
 20
38.55591209623371
 30
0.0
 10
778.7274177683341
 20
39.38629270025233
 30
0.0
 10
774.1784451180854
 20
40.05207844436546
 30
0.0
 10
769.6251846984865
 20
40.53729942418681
 30
0.0
 10
765.0862694065913
 20
40.84247624699513
 30
0.0
 10
760.435657819236
 20
40.96489435269832
 30
0.0
 10
755.9184062839431
 20
40.8939823640218
 30
0.0
 10
751.6034384177466
 20
40.65634872667824
 30
0.0
 10
747.4991132970098
 20
40.28126591325751
 30
0.0
 10
743.433667358546
 20
39.76397858032973
 30
0.0
 10
738.1334826173338
 20
38.90447772757989
 30
0.0
 10
731.784014864329
 20
37.55194973976694
 30
0.0
 10
725.9281268998426
 20
35.95515227880623
 30
0.0
 10
721.5525010972032
 20
34.59578548155203
 30
0.0
 10
718.3956720231296
 20
33.53717393254252
 30
0.0
 10
715.4901939446233
 20
32.49787508808462
 30
0.0
 10
712.8792729796879
 20
31.51196112755647
 30
0.0
 10
710.595876306582
 20
30.6106329501722
 30
0.0
 10
708.6483217580802
 20
29.81373485196875
 30
0.0
 10
707.0599724982515
 20
29.1448634090791
 30
0.0
 10
705.9040436004127
 20
28.64731494765377
 30
0.0
 10
705.1871506149811
 20
28.33457947254699
 30
0.0
 10
704.8477328240215
 20
28.18531376563818
 30
0.0
 10
704.8799808953371
 20
28.19949906463431
 30
0.0
 10
704.8903241044076
 20
28.20404884101659
 30
0.0
  0
LINE
  5
B7
330
1F
100
AcDbEntity
  8
0
  6
Continuous
 62
     7
370
    25
100
AcDbLine
 10
1054.8430591112
 20
278.1832617212
 30
0.0
 11
1054.8430591112
 21
28.1832617212
 31
0.0
  0
LINE
  5
B8
330
1F
100
AcDbEntity
  8
0
  6
Continuous
 62
     7
370
    25
100
AcDbLine
 10
464.8430853373
 20
278.1832617212
 30
0.0
 11
464.8430853373
 21
28.1832617212
 31
0.0
  0
LINE
  5
B9
330
1F
100
AcDbEntity
  8
0
  6
Continuous
 62
     7
370
    25
100
AcDbLine
 10
814.8430719262
 20
-97.8167254042
 30
0.0
 11
704.8430725223
 21
-97.8167254042
 31
0.0
  0
LINE
  5
BA
330
1F
100
AcDbEntity
  8
0
  6
Continuous
 62
     7
370
    25
100
AcDbLine
 10
15.2388275653
 20
-259.0564441744
 30
0.0
 11
15.2388275653
 21
-849.0564179484
 31
0.0
  0
LINE
  5
BB
330
1F
100
AcDbEntity
  8
0
  6
Continuous
 62
     7
370
    25
100
AcDbLine
 10
265.2388275653
 20
-849.0564179484
 30
0.0
 11
265.2388275653
 21
-259.0564441744
 31
0.0
  0
LINE
  5
BC
330
1F
100
AcDbEntity
  8
0
  6
Continuous
 62
     7
370
    25
100
AcDbLine
 10
265.2388275653
 20
-849.0564179484
 30
0.0
 11
15.2388275653
 21
-849.0564179484
 31
0.0
  0
LINE
  5
BD
330
1F
100
AcDbEntity
  8
0
  6
Continuous
 62
     7
370
    25
100
AcDbLine
 10
265.2388275653
 20
-259.0564441744
 30
0.0
 11
15.2388275653
 21
-259.0564441744
 31
0.0
  0
LINE
  5
BE
330
1F
100
AcDbEntity
  8
0
  6
Continuous
 62
     7
370
    25
100
AcDbLine
 10
984.5518916347
 20
-464.8637244981
 30
0.0
 11
567.3589092792
 21
-224.023342216
 31
0.0
  0
LINE
  5
BF
330
1F
100
AcDbEntity
  8
0
  6
Continuous
 62
     7
370
    25
100
AcDbLine
 10
442.369068809
 20
-440.5355544642
 30
0.0
 11
658.4604807153
 21
-565.282471245
 31
0.0
  0
LINE
  5
C0
330
1F
100
AcDbEntity
  8
0
  6
Continuous
 62
     7
370
    25
100
AcDbLine
 10
768.4604790698
 20
-628.7841186245
 30
0.0
 11
859.5620511645
 21
-681.3759367464
 31
0.0
  0
LINE
  5
C1
330
1F
100
AcDbEntity
  8
0
  6
Continuous
 62
     7
370
    25
100
AcDbLine
 10
658.4604813739
 20
-549.700641745
 30
0.0
 11
658.4604813739
 21
-657.6513727519
 31
0.0
  0
LINE
  5
C2
330
1F
100
AcDbEntity
  8
0
  6
Continuous
 62
     7
370
    25
100
AcDbLine
 10
768.4604790698
 20
-657.6513727519
 30
0.0
 11
768.4604790698
 21
-549.7006660798
 31
0.0
  0
SPLINE
  5
C3
330
1F
100
AcDbEntity
  8
0
  6
Continuous
 62
     7
370
    25
100
AcDbSpline
210
0.0
220
0.0
230
1.0
 70
     8
 71
     3
 72
    17
 73
    13
 74
     0
 42
0.000000001
 43
0.00000001
 40
0.0
 40
0.0
 40
0.0
 40
0.0
 40
0.0988390750838543
 40
0.1995526355357795
 40
0.3002690985088935
 40
0.4028971722533444
 40
0.5017274495620898
 40
0.6021932625964782
 40
0.7026635744713186
 40
0.8047673259120544
 40
0.9085954319527971
 40
1.0
 40
1.0
 40
1.0
 40
1.0
 10
674.5696074673136
 20
-532.3160180134199
 30
0.0
 10
673.5735966262173
 20
-532.9059606323109
 30
0.0
 10
671.5626855751541
 20
-534.0970341456426
 30
0.0
 10
668.8705000942557
 20
-535.8979828728678
 30
0.0
 10
666.4177618282853
 20
-537.714502965999
 30
0.0
 10
664.2948111875381
 20
-539.505255953647
 30
0.0
 10
662.4892503690904
 20
-541.2742977141903
 30
0.0
 10
661.0176678456206
 20
-543.0078067292287
 30
0.0
 10
659.8571517299176
 20
-544.7369120172943
 30
0.0
 10
659.0337888968234
 20
-546.4622751755184
 30
0.0
 10
658.5378289760629
 20
-548.1188981645391
 30
0.0
 10
658.4997635824963
 20
-549.1964977463864
 30
0.0
 10
658.4819420222849
 20
-549.7010112698872
 30
0.0
  0
SPLINE
  5
C4
330
1F
100
AcDbEntity
  8
0
  6
Continuous
 62
     7
370
    25
100
AcDbSpline
210
0.0
220
0.0
230
1.0
 70
     8
 71
     3
 72
    33
 73
    29
 74
     0
 42
0.000000001
 43
0.00000001
 40
0.0
 40
0.0
 40
0.0
 40
0.0
 40
0.0201033813665606
 40
0.0558771650971842
 40
0.0923918542279761
 40
0.1291693318839945
 40
0.165341339223388
 40
0.2017944045486339
 40
0.2391846186817708
 40
0.2769224432922276
 40
0.3100754830750683
 40
0.3438980146725271
 40
0.3777208027107194
 40
0.4122383200756758
 40
0.4751118993113341
 40
0.5396094835698181
 40
0.6065396641911919
 40
0.6407514436874586
 40
0.6751716656767511
 40
0.7113158014550686
 40
0.7477092789440962
 40
0.7849099863822078
 40
0.8224022151654925
 40
0.8579634717563479
 40
0.8938035758670905
 40
0.9305605247701003
 40
0.9676497985746652
 40
1.0
 40
1.0
 40
1.0
 40
1.0
 10
768.4143098314547
 20
-549.7008105442654
 30
0.0
 10
768.4206739806136
 20
-549.0438836951397
 30
0.0
 10
768.438363075138
 20
-547.2179615114003
 30
0.0
 10
768.0455168572859
 20
-544.2065959924846
 30
0.0
 10
767.259496862012
 20
-540.7065316269094
 30
0.0
 10
766.0576093772563
 20
-537.2894282881
 30
0.0
 10
764.4719888961662
 20
-534.0120186023714
 30
0.0
 10
762.4919529841518
 20
-530.8960198703772
 30
0.0
 10
760.0974423187358
 20
-527.9642202766343
 30
0.0
 10
757.4065837250808
 20
-525.3863233371081
 30
0.0
 10
754.4900254508519
 20
-523.1708432269727
 30
0.0
 10
751.4152943815177
 20
-521.3134413772458
 30
0.0
 10
748.052415644122
 20
-519.7255115722548
 30
0.0
 10
743.4482778115338
 20
-518.0841626719979
 30
0.0
 10
737.327247625623
 20
-516.7588007331996
 30
0.0
 10
729.4993666575683
 20
-516.2211789785969
 30
0.0
 10
722.5530472063829
 20
-516.592277308471
 30
0.0
 10
716.7961183401569
 20
-517.3430956160987
 30
0.0
 10
712.3263325776479
 20
-518.137728325701
 30
0.0
 10
707.7672538825693
 20
-519.1527527112465
 30
0.0
 10
703.1205010127472
 20
-520.3860910793722
 30
0.0
 10
698.4777699813299
 20
-521.8083549916552
 30
0.0
 10
693.9635519921376
 20
-523.3711266880376
 30
0.0
 10
689.6302164763928
 20
-525.0374467629575
 30
0.0
 10
685.4784519162351
 20
-526.7905484244504
 30
0.0
 10
681.4673771460914
 20
-528.6481737693715
 30
0.0
 10
677.7911364393141
 20
-530.5021169344078
 30
0.0
 10
675.5934550181291
 20
-531.7395345506575
 30
0.0
 10
674.5696074673136
 20
-532.3160180134199
 30
0.0
  0
LWPOLYLINE
  5
C5
330
1F
100
AcDbEntity
  8
0
  6
Continuous
 62
     7
370
    25
100
AcDbPolyline
 90
      119
 70
   128
 43
0.0
 10
504.8639890441
 20
-434.3470498258
 10
509.5682092114
 20
-431.4867030353
 10
514.2590945109
 20
-428.3451392384
 10
518.9233492584
 20
-424.9312627785
 10
523.5477502093
 20
-421.2547635636
 10
528.1191896938
 20
-417.3260495799
 10
532.6247115072
 20
-413.1562626744
 10
537.0515398861
 20
-408.7572192417
 10
541.3871308746
 20
-404.1413927381
 10
545.6191933982
 20
-399.3218650136
 10
549.73573141
 20
-394.3123019819
 10
553.7250728672
 20
-389.1269003899
 10
557.5759145118
 20
-383.7803558828
 10
561.2773403101
 20
-378.2878219407
 10
564.8188504284
 20
-372.6648809841
 10
568.1904139168
 20
-366.9274592065
 10
571.3824739774
 20
-361.0918235333
 10
574.3859795745
 20
-355.1745147041
 10
577.1924170446
 20
-349.1923107731
 10
579.7938364385
 20
-343.1621571496
 10
582.182851521
 20
-337.1011635555
 10
584.3527029913
 20
-331.0265006086
 10
586.297232141
 20
-324.9553876527
 10
588.0109335382
 20
-318.9050349674
 10
589.4889392218
 20
-312.8925981388
 10
590.7270713854
 20
-306.9351126645
 10
591.7218160356
 20
-301.0494680956
 10
592.4703493335
 20
-295.252348723
 10
592.9705534
 20
-289.560187951
 10
593.2210110473
 20
-283.9891181065
 10
593.2210110473
 20
-278.5549324159
 10
592.9705534
 20
-273.2730348157
 10
592.4703493335
 20
-268.158397366
 10
591.7218160356
 20
-263.2255161433
 10
590.7270713854
 20
-258.4883793009
 10
589.4889392218
 20
-253.9604107946
 10
588.0109335382
 20
-249.654443005
 10
586.297232141
 20
-245.5826878373
 10
584.3527029913
 20
-241.7566804493
 10
582.182851521
 20
-238.187274684
 10
579.7938364385
 20
-234.8845791921
 10
577.1924170446
 20
-231.8579604688
 10
574.3859795745
 20
-229.1160002703
 10
571.3824739774
 20
-226.6664651898
 10
568.1904139168
 20
-224.5163036151
 10
564.8188504284
 20
-222.6716061823
 10
561.2773403101
 20
-221.1376057727
 10
557.5759145118
 20
-219.9186470918
 10
553.7250728672
 20
-219.0181897099
 10
549.73573141
 20
-218.4387837229
 10
545.6191933982
 20
-218.1820743123
 10
541.3871308746
 20
-218.2487819711
 10
537.0515398861
 20
-218.6387222721
 10
532.6247115072
 20
-219.3507860927
 10
528.1191896938
 20
-220.3829639461
 10
523.5477502093
 20
-221.7323216443
 10
518.9233492584
 20
-223.3950421188
 10
514.2590945109
 20
-225.3663995623
 10
509.5682092114
 20
-227.6408166499
 10
504.8639890441
 20
-230.2118468544
 10
500.1597688768
 20
-233.0721936449
 10
495.4688835773
 20
-236.2137574418
 10
490.8046288299
 20
-239.6276339018
 10
486.180227879
 20
-243.3041331166
 10
481.6087883945
 20
-247.2328471003
 10
477.1032665811
 20
-251.4026340058
 10
472.6764382022
 20
-255.8016774385
 10
468.3408472136
 20
-260.4175039422
 10
464.10878469
 20
-265.2370316666
 10
459.9922466782
 20
-270.2465946983
 10
456.0029052211
 20
-275.4319962903
 10
452.1520635764
 20
-280.7785407975
 10
448.4506377782
 20
-286.2710747395
 10
444.9091276599
 20
-291.8940156961
 10
441.5375641714
 20
-297.6314374737
 10
438.3455041108
 20
-303.4670731469
 10
435.3419985138
 20
-309.3843819761
 10
432.5355610436
 20
-315.3665859071
 10
429.9341416497
 20
-321.3967395306
 10
427.5451265672
 20
-327.4577331247
 10
425.3752750969
 20
-333.5323960717
 10
423.4307459472
 20
-339.6035090275
 10
421.71704455
 20
-345.6538617128
 10
420.2390388665
 20
-351.6662985414
 10
419.0009067028
 20
-357.6237840157
 10
418.0061620526
 20
-363.5094285846
 10
417.2576287547
 20
-369.3065479572
 10
416.7574246882
 20
-374.9987087292
 10
416.506967041
 20
-380.5697785737
 10
416.506967041
 20
-386.0039642643
 10
416.7574246882
 20
-391.2858618645
 10
417.2576287547
 20
-396.4004993143
 10
418.0061620526
 20
-401.3333805369
 10
419.0009067028
 20
-406.0705173794
 10
420.2390388665
 20
-410.5984858856
 10
421.71704455
 20
-414.9044536752
 10
423.4307459472
 20
-418.9762088429
 10
425.3752750969
 20
-422.8022162309
 10
427.5451265672
 20
-426.3716219962
 10
429.9341416497
 20
-429.6743174881
 10
432.5355610436
 20
-432.7009362115
 10
435.3419985138
 20
-435.4428964099
 10
438.3455041108
 20
-437.8924314904
 10
441.5375641714
 20
-440.0425930651
 10
444.9091276599
 20
-441.887290498
 10
448.4506377782
 20
-443.4212909075
 10
452.1520635764
 20
-444.6402495885
 10
456.0029052211
 20
-445.5407069704
 10
459.9922466782
 20
-446.1201129573
 10
464.10878469
 20
-446.3768223679
 10
468.3408472136
 20
-446.3101147091
 10
472.6764382022
 20
-445.9201744081
 10
477.1032665811
 20
-445.2081105875
 10
481.6087883945
 20
-444.1759327341
 10
486.180227879
 20
-442.8265750359
 10
490.8046288299
 20
-441.1638545614
 10
495.4688835773
 20
-439.1924971179
 10
500.1597688768
 20
-436.9180800303
 10
504.8639890441
 20
-434.3470498258
  0
LWPOLYLINE
  5
C6
330
1F
100
AcDbEntity
  8
0
  6
Continuous
 62
     7
370
    25
100
AcDbPolyline
 90
       46
 70
   128
 43
0.0
 10
922.0569713996
 20
-675.187432108
 10
926.7611915668
 20
-672.3270853174
 10
931.4520768664
 20
-669.1855215206
 10
936.1163316138
 20
-665.7716450606
 10
940.7407325647
 20
-662.0951458457
 10
945.3121720492
 20
-658.166431862
 10
949.8176938626
 20
-653.9966449566
 10
954.2445222415
 20
-649.5976015239
 10
958.5801132301
 20
-644.9817750202
 10
962.8121757537
 20
-640.1622472957
 10
966.9287137655
 20
-635.152684264
 10
970.9180552226
 20
-629.967282672
 10
974.7688968672
 20
-624.6207381649
 10
978.4703226655
 20
-619.1282042228
 10
982.0118327838
 20
-613.5052632662
 10
985.3833962722
 20
-607.7678414886
 10
988.5754563328
 20
-601.9322058154
 10
991.5789619299
 20
-596.0148969862
 10
994.3853994001
 20
-590.0326930553
 10
996.986818794
 20
-584.0025394317
 10
999.3758338765
 20
-577.9415458376
 10
1001.5456853467
 20
-571.8668828907
 10
1003.4902144965
 20
-565.7957699348
 10
1005.2039158936
 20
-559.7454172495
 10
1006.6819215772
 20
-553.7329804209
 10
1007.9200537409
 20
-547.7754949466
 10
1008.9147983911
 20
-541.8898503778
 10
1009.663331689
 20
-536.0927310051
 10
1010.1635357555
 20
-530.4005702332
 10
1010.4139934027
 20
-524.8295003886
 10
1010.4139934027
 20
-519.3953146981
 10
1010.1635357555
 20
-514.1134170978
 10
1009.663331689
 20
-508.9987796481
 10
1008.9147983911
 20
-504.0658984254
 10
1007.9200537409
 20
-499.328761583
 10
1006.6819215772
 20
-494.8007930767
 10
1005.2039158936
 20
-490.4948252871
 10
1003.4902144965
 20
-486.4230701194
 10
1001.5456853467
 20
-482.5970627314
 10
999.3758338765
 20
-479.0276569661
 10
996.986818794
 20
-475.7249614742
 10
994.3853994001
 20
-472.6983427509
 10
991.5789619299
 20
-469.9563825525
 10
988.5754563328
 20
-467.506847472
 10
985.3833962722
 20
-465.3566858972
 10
984.5518916347
 20
-464.8637244981
  0
LWPOLYLINE
  5
C7
330
1F
100
AcDbEntity
  8
0
  6
Continuous
 62
     7
370
    25
100
AcDbPolyline
 90
       16
 70
   128
 43
0.0
 10
859.5620511645
 20
-681.3759367464
 10
862.1021100153
 20
-682.7276727801
 10
865.6436201336
 20
-684.2616731896
 10
869.3450459319
 20
-685.4806318706
 10
873.1958875765
 20
-686.3810892525
 10
877.1852290337
 20
-686.9604952394
 10
881.3017670455
 20
-687.2172046501
 10
885.533829569
 20
-687.1504969912
 10
889.8694205576
 20
-686.7605566902
 10
894.2962489365
 20
-686.0484928696
 10
898.8017707499
 20
-685.0163150163
 10
903.3732102344
 20
-683.6669573181
 10
907.9976111853
 20
-682.0042368435
 10
912.6618659328
 20
-680.0328794
 10
917.3527512323
 20
-677.7584623124
 10
922.0569713996
 20
-675.187432108
  0
LWPOLYLINE
  5
C8
330
1F
100
AcDbEntity
  8
0
  6
Continuous
 62
     7
370
    25
100
AcDbPolyline
 90
      112
 70
   128
 43
0.0
 10
504.8639890441
 20
-422.2622480877
 10
509.2724960562
 20
-419.5731482338
 10
513.66688124
 20
-416.6044233288
 10
518.0330682064
 20
-413.3655804996
 10
522.3570701287
 20
-409.8669877255
 10
526.6250378159
 20
-406.119864337
 10
530.8232972499
 20
-402.1362106764
 10
534.9384022688
 20
-397.9287776842
 10
538.9571674946
 20
-393.5110539744
 10
542.8667249676
 20
-388.8971905539
 10
546.6545465369
 20
-384.1019574784
 10
550.3085018129
 20
-379.1407225647
 10
553.8168792399
 20
-374.0293783883
 10
557.1684493171
 20
-368.7842997033
 10
560.3524751347
 20
-363.4222765231
 10
563.3587518871
 20
-357.9604973931
 10
566.1776542877
 20
-352.4164550986
 10
568.8001471058
 20
-346.807910163
 10
571.2178378504
 20
-341.1528239324
 10
573.4229715012
 20
-335.469312947
 10
575.4084937295
 20
-329.7755850683
 10
577.1680403611
 20
-324.0898755993
 10
578.6959742551
 20
-318.4304016601
 10
579.987406377
 20
-312.8152891854
 10
581.0381905307
 20
-307.2625272962
 10
581.8449655049
 20
-301.7899029043
 10
582.4051498052
 20
-296.414944437
 10
582.7169469221
 20
-291.1548705068
 10
582.779355868
 20
-286.0265318317
 10
582.5921764454
 20
-281.0463560075
 10
582.1560145152
 20
-276.2302929446
 10
581.4722609235
 20
-271.5937739914
 10
580.5431073063
 20
-267.1516481521
 10
579.3715302848
 20
-262.9181492898
 10
577.9612809286
 20
-258.9068337679
 10
576.3168847554
 20
-255.1305523132
 10
574.4435995847
 20
-251.6014028626
 10
572.3474313424
 20
-248.3306864583
 10
570.0350919141
 20
-245.3288859505
 10
567.5139938767
 20
-242.6056112439
 10
564.7922030834
 20
-240.1695932092
 10
561.8784492002
 20
-238.0286319731
 10
558.7820572174
 20
-236.1895786603
 10
555.5129527177
 20
-234.6583353942
 10
552.0815986563
 20
-233.4398005374
 10
548.4989979949
 20
-232.5378793391
 10
544.7766199446
 20
-231.9554595924
 10
540.9263894293
 20
-231.6944055505
 10
536.9606396705
 20
-231.7555548797
 10
532.8920753091
 20
-232.1387156147
 10
528.7337276235
 20
-232.842661591
 10
524.4989176523
 20
-233.8651294002
 10
520.2012114122
 20
-235.2028442411
 10
515.8543764347
 20
-236.8515267598
 10
511.4723350092
 20
-238.8058957073
 10
507.0691256584
 20
-241.059690179
 10
502.6588524299
 20
-243.6056867208
 10
498.255643079
 20
-246.435729553
 10
493.8736016536
 20
-249.540757943
 10
489.5267666761
 20
-252.9108242622
 10
485.2290604359
 20
-256.5351354266
 10
480.9942504647
 20
-260.4020751362
 10
476.8359027792
 20
-264.4992552028
 10
472.7673384177
 20
-268.8135588912
 10
468.801588659
 20
-273.3311667718
 10
464.9513581437
 20
-278.0376023441
 10
461.2289800933
 20
-282.9177883071
 10
457.6463794319
 20
-287.9560921838
 10
454.2150253705
 20
-293.1363841114
 10
450.9459208708
 20
-298.442055092
 10
447.849528888
 20
-303.8561264918
 10
444.9357750048
 20
-309.3612363534
 10
442.2139842116
 20
-314.9397671477
 10
439.6928861742
 20
-320.5738396902
 10
437.3805467458
 20
-326.2454104744
 10
435.2843785035
 20
-331.9363112162
 10
433.4110933328
 20
-337.6283096874
 10
431.7666971597
 20
-343.3031705512
 10
430.3564478034
 20
-348.9427253217
 10
429.1848707819
 20
-354.5288982205
 10
428.2557171647
 20
-360.0438019916
 10
427.571963573
 20
-365.469766038
 10
427.1358016428
 20
-370.7894109464
 10
426.9486222202
 20
-375.9856995319
 10
427.0110311661
 20
-381.0419823717
 10
427.3228282831
 20
-385.9420630134
 10
427.8830125833
 20
-390.6702464546
 10
428.6897875575
 20
-395.2113882885
 10
429.7405717112
 20
-399.5509406177
 10
431.0320038331
 20
-403.6749973025
 10
432.5599377271
 20
-407.5703563179
 10
434.3194843588
 20
-411.2245364884
 10
436.305006587
 20
-414.6258291981
 10
438.5101402378
 20
-417.7633470633
 10
440.9278309824
 20
-420.627026977
 10
443.5503238006
 20
-423.2077061546
 10
446.3692262012
 20
-425.4971130143
 10
449.3755029535
 20
-427.4879188877
 10
452.5595287711
 20
-429.1737441091
 10
455.9110988483
 20
-430.5491823505
 10
459.4194762753
 20
-431.609840171
 10
463.0734315513
 20
-432.352308122
 10
466.8612531207
 20
-432.7742155024
 10
470.7708105936
 20
-432.8741999452
 10
474.7895758194
 20
-432.6519560898
 10
478.9046808383
 20
-432.1081899593
 10
483.1029402723
 20
-431.2446364532
 10
487.3709079595
 20
-430.0640692388
 10
491.6949098819
 20
-428.5702756593
 10
496.0610968483
 20
-426.7680263197
 10
500.455482032
 20
-424.6631020873
 10
504.8639890441
 20
-422.2622480877
  0
LWPOLYLINE
  5
C9
330
1F
100
AcDbEntity
  8
0
  6
Continuous
 62
     7
370
    25
100
AcDbPolyline
 90
       74
 70
   128
 43
0.0
 10
747.6844482458
 20
-677.4084489509
 10
750.4998139331
 20
-675.6368988592
 10
753.0409537848
 20
-673.732190545
 10
755.2890528549
 20
-671.7084246909
 10
757.2274654433
 20
-669.5805847333
 10
758.8418477919
 20
-667.3644268034
 10
760.1202380984
 20
-665.0763544614
 10
761.0531770295
 20
-662.7333126291
 10
761.6337590873
 20
-660.3526454062
 10
761.8576800251
 20
-657.951977458
 10
761.7232842619
 20
-655.5490862776
 10
761.2315675171
 20
-653.1617577221
 10
760.3861728587
 20
-650.8076696803
 10
759.1933577769
 20
-648.5042483688
 10
757.6619494021
 20
-646.2685512395
 10
755.8032878707
 20
-644.1171278377
 10
753.6311393972
 20
-642.0659057511
 10
751.1615793823
 20
-640.1300744682
 10
748.4128908325
 20
-638.3239659096
 10
745.4054296879
 20
-636.6609493114
 10
742.1614590332
 20
-635.1533385587
 10
738.7049969747
 20
-633.8122952424
 10
735.0616310944
 20
-632.6477489187
 10
731.2583409731
 20
-631.6683189839
 10
727.3232780713
 20
-630.8812605958
 10
723.2855849593
 20
-630.2923968128
 10
719.1751463867
 20
-629.906090462
 10
715.0223976466
 20
-629.725200419
 10
710.858086182
 20
-629.7510656415
 10
706.7130437298
 20
-629.9834952842
 10
702.6179545126
 20
-630.4207671786
 10
698.6031405538
 20
-631.0596468414
 10
694.6983259185
 20
-631.8954019206
 10
690.9324174176
 20
-632.9218436346
 10
687.3333004599
 20
-634.131374673
 10
683.9276194269
 20
-635.5150399495
 10
680.7405903171
 20
-637.0625952226
 10
677.7958071338
 20
-638.762582369
 10
675.11507231
 20
-640.6024151122
 10
672.718234048
 20
-642.5684729238
 10
670.6230378174
 20
-644.6461989179
 10
668.8449959633
 20
-646.8202116203
 10
667.3972688391
 20
-649.0744131272
 10
666.2905768909
 20
-651.3921158919
 10
665.5331176807
 20
-653.7561605769
 10
665.1304941052
 20
-656.1490426507
 10
665.0856893711
 20
-658.5530484885
 10
665.3990340676
 20
-660.9503793075
 10
666.068208801
 20
-663.3232849867
 10
667.0882613167
 20
-665.6541956055
 10
668.4516341577
 20
-667.925859065
 10
670.148240398
 20
-670.1214517175
 10
672.1655123741
 20
-672.2247220708
 10
674.4885192357
 20
-674.2200951445
 10
677.1000606233
 20
-676.0927995418
 10
679.9808019996
 20
-677.8289699052
 10
683.1094127786
 20
-679.4157540293
 10
686.4627342548
 20
-680.8414006802
 10
690.0159401236
 20
-682.0953553027
 10
693.7427185684
 20
-683.1683377657
 10
697.6154792084
 20
-684.0524010027
 10
701.6055542841
 20
-684.7409984922
 10
705.6833962206
 20
-685.2290344404
 10
709.8188186547
 20
-685.512896475
 10
713.9811992668
 20
-685.5904814976
 10
718.1397287106
 20
-685.4612146918
 10
722.2636121279
 20
-685.1260518039
 10
726.3223193952
 20
-684.5874776229
 10
730.285806395
 20
-683.8494786077
 10
734.1247204814
 20
-682.9175155152
 10
737.8106467762
 20
-681.798493747
 10
741.316291902
 20
-680.5006937783
 10
744.6157009736
 20
-679.0337249672
 10
747.6844482458
 20
-677.4084489509
  0
LWPOLYLINE
  5
CA
330
1F
100
AcDbEntity
  8
0
  6
Continuous
 62
     7
370
    25
100
AcDbPolyline
 90
       79
 70
   128
 43
0.0
 10
752.3513529764
 20
-680.1025957053
 10
755.3546567295
 20
-678.2232203761
 10
758.0862621409
 20
-676.2104290695
 10
760.5284513997
 20
-674.0772754806
 10
762.6653861812
 20
-671.8375926527
 10
764.4832087335
 20
-669.5059072482
 10
765.9701284755
 20
-667.0973408952
 10
767.1165029987
 20
-664.6275117235
 10
767.9148986526
 20
-662.1124416028
 10
768.3601353261
 20
-659.5684390508
 10
768.4493285942
 20
-657.0120049513
 10
768.1818963037
 20
-654.4597162216
 10
767.5595756949
 20
-651.9281262088
 10
766.5864010115
 20
-649.4336544402
 10
765.2686837441
 20
-646.9924778948
 10
763.6149718004
 20
-644.6204283576
 10
761.6359869434
 20
-642.3328893937
 10
759.3445668399
 20
-640.1446959831
 10
756.7555708881
 20
-638.0700406193
 10
753.8857888449
 20
-636.1223779816
 10
750.7538338123
 20
-634.3143388265
 10
747.3800176078
 20
-632.6576489166
 10
743.7862197141
 20
-631.163053367
 10
739.9957468445
 20
-629.840244698
 10
736.0331837827
 20
-628.6978010577
 10
731.9242282523
 20
-627.7431334732
 10
727.695528257
 20
-626.9824314867
 10
723.3745082242
 20
-626.4206297003
 10
718.9891905398
 20
-626.0613716599
 10
714.5680177412
 20
-625.9069862848
 10
710.1396641732
 20
-625.9584764625
 10
705.7328450107
 20
-626.215506123
 10
701.3761437193
 20
-626.6764101234
 10
697.0978105415
 20
-627.3381980491
 10
692.925599177
 20
-628.196578545
 10
688.8865639513
 20
-629.2459851672
 10
685.0068991307
 20
-630.4796113581
 10
681.3117683593
 20
-631.8894572078
 10
677.8251337671
 20
-633.466379446
 10
674.5696074673
 20
-635.2001497984
 10
671.5663037141
 20
-637.0795251276
 10
668.8346983028
 20
-639.0923164343
 10
666.392509044
 20
-641.2254700231
 10
664.2555742624
 20
-643.4651528511
 10
662.4377517102
 20
-645.7968382556
 10
660.9508319682
 20
-648.2054046085
 10
659.804457445
 20
-650.6752337803
 10
659.0060617911
 20
-653.190303901
 10
658.5608251176
 20
-655.7343064529
 10
658.4716318495
 20
-658.2907405524
 10
658.73906414
 20
-660.8430292821
 10
659.3613847488
 20
-663.3746192949
 10
660.3345594321
 20
-665.8690910635
 10
661.6522766996
 20
-668.3102676089
 10
663.3059886433
 20
-670.6823171461
 10
665.2849735003
 20
-672.96985611
 10
667.5763936038
 20
-675.1580495206
 10
670.1653895556
 20
-677.2327048844
 10
673.0351715988
 20
-679.1803675221
 10
676.1671266314
 20
-680.9884066772
 10
679.5409428359
 20
-682.6450965871
 10
683.1347407296
 20
-684.1396921367
 10
686.9252135992
 20
-685.4625008057
 10
690.887776661
 20
-686.604944446
 10
694.9967321914
 20
-687.5596120305
 10
699.2254321867
 20
-688.320314017
 10
703.5464522195
 20
-688.8821158034
 10
707.9317699038
 20
-689.2413738438
 10
712.3529427025
 20
-689.395759219
 10
716.7812962705
 20
-689.3442690413
 10
721.188115433
 20
-689.0872393807
 10
725.5448167243
 20
-688.6263353803
 10
729.8231499021
 20
-687.9645474546
 10
733.9953612666
 20
-687.1061669587
 10
738.0343964924
 20
-686.0567603365
 10
741.914061313
 20
-684.8231341456
 10
745.6091920843
 20
-683.4132882959
 10
749.0958266766
 20
-681.8363660577
 10
752.3513529764
 20
-680.1025957053
  0
ENDSEC
  0
SECTION
  2
OBJECTS
  0
DICTIONARY
  5
C
330
0
100
AcDbDictionary
281
     1
  3
ACAD_GROUP
350
D
  3
ACAD_LAYOUT
350
1A
  3
ACAD_MLINESTYLE
350
17
  3
ACAD_PLOTSETTINGS
350
19
  3
ACAD_PLOTSTYLENAME
350
E
  3
ACAD_SCALELIST
350
47
  0
DICTIONARY
  5
D
102
{ACAD_REACTORS
330
C
102
}
330
C
100
AcDbDictionary
281
     1
  0
DICTIONARY
  5
1A
102
{ACAD_REACTORS
330
C
102
}
330
C
100
AcDbDictionary
281
     1
  3
Layout1
350
1E
  3
Layout2
350
26
  3
Model
350
22
  0
DICTIONARY
  5
17
102
{ACAD_REACTORS
330
C
102
}
330
C
100
AcDbDictionary
281
     1
  3
Standard
350
18
  0
DICTIONARY
  5
19
102
{ACAD_REACTORS
330
C
102
}
330
C
100
AcDbDictionary
281
     1
  0
ACDBDICTIONARYWDFLT
  5
E
102
{ACAD_REACTORS
330
C
102
}
330
C
100
AcDbDictionary
281
     1
  3
Normal
350
F
100
AcDbDictionaryWithDefault
340
F
  0
DICTIONARY
  5
47
102
{ACAD_REACTORS
330
C
102
}
330
C
100
AcDbDictionary
281
     1
  3
A0
350
48
  3
A1
350
49
  3
A2
350
4A
  3
A3
350
4B
  3
A4
350
4C
  3
A5
350
4D
  3
A6
350
4E
  3
A7
350
4F
  3
A8
350
50
  3
A9
350
51
  3
B0
350
52
  3
B1
350
53
  3
B2
350
54
  3
B3
350
55
  3
B4
350
56
  3
B5
350
57
  3
B6
350
58
  3
B7
350
59
  3
B8
350
5A
  3
B9
350
5B
  3
C0
350
5C
  3
C1
350
5D
  3
C2
350
5E
  3
C3
350
5F
  3
C4
350
60
  3
C5
350
61
  3
C6
350
62
  3
C7
350
63
  3
C8
350
64
  3
C9
350
65
  3
D0
350
66
  3
D1
350
67
  3
D2
350
68
  0
LAYOUT
  5
1E
102
{ACAD_REACTORS
330
1A
102
}
330
1A
100
AcDbPlotSettings
  1

  2
none_device
  4

  6

 40
0.0
 41
0.0
 42
0.0
 43
0.0
 44
0.0
 45
0.0
 46
0.0
 47
0.0
 48
0.0
 49
0.0
140
0.0
141
0.0
142
1.0
143
1.0
 70
   688
 72
     1
 73
     0
 74
     5
  7

 75
    16
147
1.0
148
0.0
149
0.0
100
AcDbLayout
  1
Layout1
 70
     1
 71
     1
 10
0.0
 20
0.0
 11
420.0
 21
297.0
 12
0.0
 22
0.0
 32
0.0
 14
1.0000000000E+20
 24
1.0000000000E+20
 34
1.0000000000E+20
 15
-1.0000000000E+20
 25
-1.0000000000E+20
 35
-1.0000000000E+20
146
0.0
 13
0.0
 23
0.0
 33
0.0
 16
1.0
 26
0.0
 36
0.0
 17
0.0
 27
1.0
 37
0.0
 76
     0
330
1B
  0
LAYOUT
  5
26
102
{ACAD_REACTORS
330
1A
102
}
330
1A
100
AcDbPlotSettings
  1

  2
none_device
  4

  6

 40
0.0
 41
0.0
 42
0.0
 43
0.0
 44
0.0
 45
0.0
 46
0.0
 47
0.0
 48
0.0
 49
0.0
140
0.0
141
0.0
142
1.0
143
1.0
 70
   688
 72
     1
 73
     0
 74
     5
  7

 75
    16
147
1.0
148
0.0
149
0.0
100
AcDbLayout
  1
Layout2
 70
     1
 71
     2
 10
0.0
 20
0.0
 11
0.0
 21
0.0
 12
0.0
 22
0.0
 32
0.0
 14
0.0
 24
0.0
 34
0.0
 15
0.0
 25
0.0
 35
0.0
146
0.0
 13
0.0
 23
0.0
 33
0.0
 16
1.0
 26
0.0
 36
0.0
 17
0.0
 27
1.0
 37
0.0
 76
     0
330
23
  0
LAYOUT
  5
22
102
{ACAD_REACTORS
330
1A
102
}
330
1A
100
AcDbPlotSettings
  1

  2
none_device
  4
Letter_(8.50_x_11.00_Inches)
  6

 40
6.35
 41
6.35
 42
6.35000508
 43
6.35000508
 44
215.9
 45
279.4
 46
0.0
 47
0.0
 48
0.0
 49
0.0
140
0.0
141
0.0
142
1.0
143
1.0
 70
  1712
 72
     1
 73
     0
 74
     0
  7

 75
     0
147
1.0
148
0.0
149
0.0
100
AcDbLayout
  1
Model
 70
     1
 71
     0
 10
0.0
 20
0.0
 11
279.4
 21
215.9
 12
0.0
 22
0.0
 32
0.0
 14
0.0
 24
0.0
 34
0.0
 15
279.4
 25
215.9
 35
0.0
146
0.0
 13
0.0
 23
0.0
 33
0.0
 16
1.0
 26
0.0
 36
0.0
 17
0.0
 27
1.0
 37
0.0
 76
     0
330
1F
331
29
  0
MLINESTYLE
  5
18
102
{ACAD_REACTORS
330
17
102
}
330
17
100
AcDbMlineStyle
  2
Standard
 70
     0
  3

 62
   256
 51
90.0
 52
90.0
 71
     2
 49
0.5
 62
   256
  6
BYLAYER
 49
-0.5
 62
   256
  6
BYLAYER
  0
ACDBPLACEHOLDER
  5
F
102
{ACAD_REACTORS
330
E
102
}
330
E
  0
SCALE
  5
48
102
{ACAD_REACTORS
330
47
102
}
330
47
100
AcDbScale
 70
     0
300
1:1
140
1.0
141
1.0
290
     1
  0
SCALE
  5
49
102
{ACAD_REACTORS
330
47
102
}
330
47
100
AcDbScale
 70
     0
300
1:2
140
1.0
141
2.0
290
     0
  0
SCALE
  5
4A
102
{ACAD_REACTORS
330
47
102
}
330
47
100
AcDbScale
 70
     0
300
1:4
140
1.0
141
4.0
290
     0
  0
SCALE
  5
4B
102
{ACAD_REACTORS
330
47
102
}
330
47
100
AcDbScale
 70
     0
300
1:5
140
1.0
141
5.0
290
     0
  0
SCALE
  5
4C
102
{ACAD_REACTORS
330
47
102
}
330
47
100
AcDbScale
 70
     0
300
1:8
140
1.0
141
8.0
290
     0
  0
SCALE
  5
4D
102
{ACAD_REACTORS
330
47
102
}
330
47
100
AcDbScale
 70
     0
300
1:10
140
1.0
141
10.0
290
     0
  0
SCALE
  5
4E
102
{ACAD_REACTORS
330
47
102
}
330
47
100
AcDbScale
 70
     0
300
1:16
140
1.0
141
16.0
290
     0
  0
SCALE
  5
4F
102
{ACAD_REACTORS
330
47
102
}
330
47
100
AcDbScale
 70
     0
300
1:20
140
1.0
141
20.0
290
     0
  0
SCALE
  5
50
102
{ACAD_REACTORS
330
47
102
}
330
47
100
AcDbScale
 70
     0
300
1:30
140
1.0
141
30.0
290
     0
  0
SCALE
  5
51
102
{ACAD_REACTORS
330
47
102
}
330
47
100
AcDbScale
 70
     0
300
1:40
140
1.0
141
40.0
290
     0
  0
SCALE
  5
52
102
{ACAD_REACTORS
330
47
102
}
330
47
100
AcDbScale
 70
     0
300
1:50
140
1.0
141
50.0
290
     0
  0
SCALE
  5
53
102
{ACAD_REACTORS
330
47
102
}
330
47
100
AcDbScale
 70
     0
300
1:100
140
1.0
141
100.0
290
     0
  0
SCALE
  5
54
102
{ACAD_REACTORS
330
47
102
}
330
47
100
AcDbScale
 70
     0
300
2:1
140
2.0
141
1.0
290
     0
  0
SCALE
  5
55
102
{ACAD_REACTORS
330
47
102
}
330
47
100
AcDbScale
 70
     0
300
4:1
140
4.0
141
1.0
290
     0
  0
SCALE
  5
56
102
{ACAD_REACTORS
330
47
102
}
330
47
100
AcDbScale
 70
     0
300
8:1
140
8.0
141
1.0
290
     0
  0
SCALE
  5
57
102
{ACAD_REACTORS
330
47
102
}
330
47
100
AcDbScale
 70
     0
300
10:1
140
10.0
141
1.0
290
     0
  0
SCALE
  5
58
102
{ACAD_REACTORS
330
47
102
}
330
47
100
AcDbScale
 70
     0
300
100:1
140
100.0
141
1.0
290
     0
  0
SCALE
  5
59
102
{ACAD_REACTORS
330
47
102
}
330
47
100
AcDbScale
 70
     0
300
1/128" = 1'-0"
140
0.0078125
141
12.0
290
     0
  0
SCALE
  5
5A
102
{ACAD_REACTORS
330
47
102
}
330
47
100
AcDbScale
 70
     0
300
1/64" = 1'-0"
140
0.015625
141
12.0
290
     0
  0
SCALE
  5
5B
102
{ACAD_REACTORS
330
47
102
}
330
47
100
AcDbScale
 70
     0
300
1/32" = 1'-0"
140
0.03125
141
12.0
290
     0
  0
SCALE
  5
5C
102
{ACAD_REACTORS
330
47
102
}
330
47
100
AcDbScale
 70
     0
300
1/16" = 1'-0"
140
0.0625
141
12.0
290
     0
  0
SCALE
  5
5D
102
{ACAD_REACTORS
330
47
102
}
330
47
100
AcDbScale
 70
     0
300
3/32" = 1'-0"
140
0.09375
141
12.0
290
     0
  0
SCALE
  5
5E
102
{ACAD_REACTORS
330
47
102
}
330
47
100
AcDbScale
 70
     0
300
1/8" = 1'-0"
140
0.125
141
12.0
290
     0
  0
SCALE
  5
5F
102
{ACAD_REACTORS
330
47
102
}
330
47
100
AcDbScale
 70
     0
300
3/16" = 1'-0"
140
0.1875
141
12.0
290
     0
  0
SCALE
  5
60
102
{ACAD_REACTORS
330
47
102
}
330
47
100
AcDbScale
 70
     0
300
1/4" = 1'-0"
140
0.25
141
12.0
290
     0
  0
SCALE
  5
61
102
{ACAD_REACTORS
330
47
102
}
330
47
100
AcDbScale
 70
     0
300
3/8" = 1'-0"
140
0.375
141
12.0
290
     0
  0
SCALE
  5
62
102
{ACAD_REACTORS
330
47
102
}
330
47
100
AcDbScale
 70
     0
300
1/2" = 1'-0"
140
0.5
141
12.0
290
     0
  0
SCALE
  5
63
102
{ACAD_REACTORS
330
47
102
}
330
47
100
AcDbScale
 70
     0
300
3/4" = 1'-0"
140
0.75
141
12.0
290
     0
  0
SCALE
  5
64
102
{ACAD_REACTORS
330
47
102
}
330
47
100
AcDbScale
 70
     0
300
1" = 1'-0"
140
1.0
141
12.0
290
     0
  0
SCALE
  5
65
102
{ACAD_REACTORS
330
47
102
}
330
47
100
AcDbScale
 70
     0
300
1-1/2" = 1'-0"
140
1.5
141
12.0
290
     0
  0
SCALE
  5
66
102
{ACAD_REACTORS
330
47
102
}
330
47
100
AcDbScale
 70
     0
300
3" = 1'-0"
140
3.0
141
12.0
290
     0
  0
SCALE
  5
67
102
{ACAD_REACTORS
330
47
102
}
330
47
100
AcDbScale
 70
     0
300
6" = 1'-0"
140
6.0
141
12.0
290
     0
  0
SCALE
  5
68
102
{ACAD_REACTORS
330
47
102
}
330
47
100
AcDbScale
 70
     0
300
1'-0" = 1'-0"
140
12.0
141
12.0
290
     0
  0
ENDSEC
  0
EOF
